Announcement

Collapse
No announcement yet.

Super Smash Bros Brawl predictions

Collapse
X
  • Filter
  • Time
  • Show
Clear All
new posts

  • Super Smash Bros Brawl predictions

    One more month until Brawl is released for the Wii. This game has me stoked to buy the console just for this game. This thread's purpose is to predict what characters will appear playable in the game that haven't been announced yet. Basically spam your wish list here. To be clear, the newcomers are:
    • Pit from Kid Icarus
    • Wario from Mario games
    • Ike from Fire Emblem
    • Pokémon Trainer
    • Diddy Kong from Donkey Kong Country
    • Meta Knight from Kirby games
    • Snake from Metal Gear Solid
    • Lucas from Mother 3 [Japan only release]
    • Sonic
    • King Dedede from Kirby games


    The veterans that are returning are:
    • Mario
    • Link from The Legend of Zelda
    • Kirby
    • Pikachu from Pokémon
    • Fox from Starfox
    • Samus from Metroid
    • Zelda from The Legend of Zelda
    • Bowser from Mario games
    • Donkey Kong from Donkey Kong Country
    • Yoshi from Mario games
    • Peach from Mario games
    • Ice Climbers


    Info Here

    So predict which veterans will be returning that haven't been announced as well as newcomers. Keep in mind that it was made very clear that no clone characters would be returning from Melee.

    My wish list:

    Sheik transformation for Zelda


    Banjo and Kazooie


    Mike from Startropics


    Ganondorf from The Legend of Zelda
    . Yea that's right, kick Captain Falcon off the roster, keep the Lord of All Evil


    The Tetris Block. Hey if Mr. Game & Watch can be in smash then why not tetris?


    Geno from Super Mario RPG


    Bomberman


    Luigi
    . Come on, who doesn't love Luigi?


    Phoenix Wright


    Ridley from Metroid
    . Less Mario and Kirby characters, more Zelda and Metroid.


    Quake Soldier


    Gunter's Mom



    I'm going to be somewhat disappointed if Quadraptor doesn't post his wish list here.
    Last edited by Canadian*Sniper; 01-08-2008, 02:11 AM.

  • #2
    I'm not wishing. I already know.

    Comment


    • #3
      You will buy Wii just because of a game? What if you don't like it?

      Comment


      • #4
        Originally posted by joao93 View Post
        You will buy Wii just because of a game? What if you don't like it?
        Then it will become a birthday present. Look at your question and think for a second. Would you buy a Wii just for the sake of buying a Wii or would you buy the Wii for a promising game that looks awesome?

        Comment


        • #5
          What the hell is this crap?
          e|------------------------0---------------
          B|---------------0^1----------------1----
          G|---------------2------2------0^2-------
          D|---------------2-------2--2-------------
          A|---------------0------------------------
          E|----------------------------------------

          Comment


          • #6
            Originally posted by the_f0qer View Post
            What the hell is this crap?
            Yeah FoQ! You tell 'em!
            'My teammates are no good to me alive.' -Bank on CA.

            'I'll cry when I'm done killin!' -A REAL Patriot

            Clan TU


            Your own... personal... Shambler
            someone to hear your prayers
            someone who cares
            your own... personal... Shambie
            someone to hear your prayers
            someone whos there

            Comment


            • #7
              I'm not telling anything. I'm asking. Really, what the hell is this crap??
              e|------------------------0---------------
              B|---------------0^1----------------1----
              G|---------------2------2------0^2-------
              D|---------------2-------2--2-------------
              A|---------------0------------------------
              E|----------------------------------------

              Comment


              • #8


                You know I'm a Doug TenNapel fan...
                "It may disturb you. It scares the willies out of me. " -Slartibartfast

                Comment


                • #9
                  Haha Earthworm Jim

                  btw Quad could you name out all those characters that kirby is shown as? I don't recognize them all.

                  Comment


                  • #10
                    Originally posted by IEEE 802.11 View Post


                    You know I'm a Doug TenNapel fan...
                    I actually had that game somewhere.
                    e|------------------------0---------------
                    B|---------------0^1----------------1----
                    G|---------------2------2------0^2-------
                    D|---------------2-------2--2-------------
                    A|---------------0------------------------
                    E|----------------------------------------

                    Comment


                    • #11
                      Originally posted by Canadian*Sniper View Post
                      Then it will become a birthday present. Look at your question and think for a second. Would you buy a Wii just for the sake of buying a Wii or would you buy the Wii for a promising game that looks awesome?
                      I will NEVER buy anything else to play games than a computer. Yeah, smart people do that.

                      Comment


                      • #12
                        Pikmin has been confirmed to be playable in brawl. What's up with Nintendo adding characters that have like 20 fans in total? kid icarus I'm pointing at you.

                        Comment


                        • #13
                          Hm, apparantly just add random characters from whatever to make up some kind of game or what?

                          I vote Alphonse Elric?


                          or am I missing something?
                          e|------------------------0---------------
                          B|---------------0^1----------------1----
                          G|---------------2------2------0^2-------
                          D|---------------2-------2--2-------------
                          A|---------------0------------------------
                          E|----------------------------------------

                          Comment


                          • #14
                            No you pretty much got it except I have yet to see an anime character in a super smash bros game

                            edit:

                            The failure of never owning a game console means you don't know what super smash bros is Here you go foqer.



                            It's basically a fighting game where you have all your favourite video game franchises beating the crap out of each other. First was on the N64, the tournament popular Super Smash Bros Melee was on the GameCube, and the newest one will be on the Wii. It's not like most fighting games which is why it's so great.
                            Last edited by Canadian*Sniper; 01-09-2008, 03:41 PM.

                            Comment


                            • #15
                              I've owned, or came into posession of consoles origionally owned by my parents. I've had:
                              3DO (cool, but is broken now)
                              PS1 (also cool, but doesn't work right)
                              N64 (which I didn't take much interest in)
                              PS2 (currently in use)

                              Also had a SEGA, but don't remember much about it... my parents sold it when I was young.
                              e|------------------------0---------------
                              B|---------------0^1----------------1----
                              G|---------------2------2------0^2-------
                              D|---------------2-------2--2-------------
                              A|---------------0------------------------
                              E|----------------------------------------

                              Comment

                              Working...
                              X