Announcement

Collapse
No announcement yet.

whitehot's rcon password

Collapse
X
  • Filter
  • Time
  • Show
Clear All
new posts

  • whitehot's rcon password

    whitehot.quakeone.com's rcon_password is "EggBert". Knock yourself out changing whatever settings you want.

  • #2
    Its a trap!
    QuakeOne.com
    Quake One Resurrection

    QuakeOne.com/qrack
    Great Quake engine

    Qrack 1.60.1 Ubuntu Guide
    Get Qrack 1.60.1 running in Ubuntu!

    Comment


    • #3
      rcon quit

      Comment


      • #4
        rcon ban canadian*sniper
        e|------------------------0---------------
        B|---------------0^1----------------1----
        G|---------------2------2------0^2-------
        D|---------------2-------2--2-------------
        A|---------------0------------------------
        E|----------------------------------------

        Comment


        • #5
          April fools bitches

          Comment


          • #6
            kinda hard to fool someone into doing something on a game he doesn't even have installed
            e|------------------------0---------------
            B|---------------0^1----------------1----
            G|---------------2------2------0^2-------
            D|---------------2-------2--2-------------
            A|---------------0------------------------
            E|----------------------------------------

            Comment


            • #7
              Good job bragging about quiting ://.

              BTW, don't listen to sniper, whitehot's rcon is canadiansniperisgay.

              Comment


              • #8
                I noticed that "EggBert" didn't work when I did a test so I FTP'd to HDZ and fixed it.
                Quakeone.com - Being exactly one-half good and one-half evil has advantages. When a portal opens to the antimatter universe, my opposite is just me with a goatee.

                So while you guys all have to fight your anti-matter counterparts, me and my evil twin will be drinking a beer laughing at you guys ...

                Comment

                Working...
                X